There was an error in this gadget

Friday, 25 November 2011

Guns N' Roses- Sweet Child O' Mine intro

Intro - guitar 1                                                        
                                                                        
Part 1- play this through twice

----------------14----13---------------------14-----14---------
-------14---------------------------14-------------------------
----------13-------13----13------------13--------13----13------
---11--------11-----------------11--------11-------------------
---------------------------------------------------------------
---------------------------------------------------------------

----------------14----13---------------------14-----14---------
-------14---------------------------14-------------------------
----------13-------13----13------------13--------13----13------
---13--------11-----------------13--------11-------------------
---------------------------------------------------------------
---------------------------------------------------------------

------------------14----13---------------------14-----14-------
-------14---------------------------14-------------------------
----11------13-11----13----13----11----13-11-------13----13----
---------------------------------------------------------------
---------------------------------------------------------------
---------------------------------------------------------------

----------------14----13---------------------14-----14---------
-------14---------------------------14-------------------------
----------13-------13----13------------13--------13----13------
---11--------11-----------------11--------11-------------------
---------------------------------------------------------------
---------------------------------------------------------------

Part 2 - only play this 1 time

----------------14----13---------------------14-----14---------
-------14---------------------------14-------------------------
----------13-------13----13------------13--------13----13------
---11--------11-----------------11--------11-------------------
---------------------------------------------------------------
---------------------------------------------------------------

----------------14----13---------------------14-----14---------
-------14---------------------------14-------------------------
----------13-------13----13------------13--------13----13------           
---13--------11-----------------13--------11-------------------
---------------------------------------------------------------
---------------------------------------------------------------

------------------14----13---------------------14-----14-------
-------14---------------------------14-------------------------
----11------13-11----13----13----11----13-11-------13----13----
---------------------------------------------------------------
---------------------------------------------------------------
---------------------------------------------------------------

Part 3 - played just before the words come in.
--11----11-13-14-13-11-14--------------------------------------
-----14--------------------------------------------------------
---------------------------------------------------------------
---------------------------------------------------------------
---------------------------------------------------------------            
---------------------------------------------------------------            

Intro - guitar 2 part
---------------------------------------------------------------
---------------------------------------------------------------
--------------3------------------------------------------------
------3-3h4-6---6-4-3----4-2p1---2p1--------4----4p3---4p3-----
----4------------------6-------2-----2-4--4----4-----4-----4---
---------------------------------------------------------------

Part 2 - chords - strum how you think it fits.

---------------------------------------------------------------
---------------------------------------------------------------
----6------4-------------6-------------------------------------
----6------4------4------6-------------------------------------
----4------2------4------4-------------------------------------
------------------2--------------------------------------------
 
ULTIMATE GUITAR

No comments:

Post a Comment