There was an error in this gadget

Friday, 25 November 2011

6xth sense-HAri NI dan SEMaLAM

Intro : Cm Gm

Cm
   Hari ini kau datang riang
        Fm      Cm
Tersenyum buatku senang
   Fm         Cm
Kau hias, dirimu
        Ab              G
Membuat hati bertambah sayang

Cm
  Namun semalam wajahmu muram
       Fm            Cm
Mengapa? Dewi mengapa?
         Fm           Cm
Mungkinkah aku bersalah?
      Ab     G      Cm
Cubalah dewi katakan

     Ab                 Eb
Jangan dewi jangan begitu
     Ab                 Eb
Senyum, senyumlah selalu
    Fm      Cm
Manis, girang
    Ab               G
Wajah bertambah jelita

Ohh

Cm
   Hari ini kau datang riang
        Fm      Cm
Tersenyum buatku senang
   Fm         Cm
Kau hias, dirimu
        Ab            G      Cm
Membuat hati bertambah sayang

Interlude
E||--------------------------------------------------|
B||--------------------------------------------------|
G||-12-12-12-10-8-10-10-10-8-7-8-8-8-7-5-7-4-5-7-----|
D||--------------------------------------------------| 
A||--------------------------------------------------| 
E||--------------------------------------------------|  

E||--------------------------------------------------|
B||--------------------------------------------------|
G||-12-12-12-10-8-10-10-10-8-7-8-8-8-7-5-7-4-5-7-5---|
D||--------------------------------------------------| 
A||--------------------------------------------------| 
E||--------------------------------------------------|

Cm
   Hari ini kau datang riang
        Fm      Cm
Tersenyum buatku senang
   Fm         Cm
Kau hias, dirimu
        Ab              G
Membuat hati bertambah sayang

Cm
  Namun semalam wajahmu muram
       Fm            Cm
Mengapa? Dewi mengapa?
         Fm           Cm
Mungkinkah aku bersalah?
      Ab     G      Cm
Cubalah dewi katakan

     Ab                 Eb
Jangan dewi jangan begitu
     Ab                 Eb
Senyum, senyumlah selalu
    Fm      Cm
Manis, girang
    Ab               G
Wajah bertambah jelita

Ohh

Cm
   Hari ini kau datang riang
        Fm      Cm
Tersenyum buatku senang
   Fm         Cm
Kau hias, dirimu
        Ab            G      Cm
Membuat hati bertambah sayang

Interlude
E||--------------------------------------------------|
B||--------------------------------------------------|
G||-12-12-12-10-8-10-10-10-8-7-8-8-8-7-5-7-4-5-7-----|
D||--------------------------------------------------| 
A||--------------------------------------------------| 
E||--------------------------------------------------|  

E||--------------------------------------------------|
B||--------------------------------------------------|
G||-12-12-12-10-8-10-10-10-8-7-8-8-8-7-5-7-4-5-7-5---|
D||--------------------------------------------------| 
A||--------------------------------------------------| 
E||--------------------------------------------------|

Outro : Cm
 

No comments:

Post a Comment